  0
SECTION
  2
HEADER
  9
$ACADVER
  1
AC1018
  9
$ACADMAINTVER
 70
    39
  9
$DWGCODEPAGE
  3
ANSI_1252
  9
$LASTSAVEDBY
  1
fottrem
  9
$INSBASE
 10
0.0
 20
0.0
 30
0.0
  9
$EXTMIN
 10
17.69517361039386
 20
6.905042311856842
 30
0.0
  9
$EXTMAX
 10
27.69516581125369
 20
16.41058934399311
 30
0.0
  9
$LIMMIN
 10
0.0
 20
0.0
  9
$LIMMAX
 10
12.0
 20
9.0
  9
$ORTHOMODE
 70
     0
  9
$REGENMODE
 70
     1
  9
$FILLMODE
 70
     1
  9
$QTEXTMODE
 70
     0
  9
$MIRRTEXT
 70
     0
  9
$LTSCALE
 40
1.0
  9
$ATTMODE
 70
     1
  9
$TEXTSIZE
 40
0.2
  9
$TRACEWID
 40
0.05
  9
$TEXTSTYLE
  7
Standard
  9
$CLAYER
  8
0
  9
$CELTYPE
  6
ByLayer
  9
$CECOLOR
 62
   256
  9
$CELTSCALE
 40
1.0
  9
$DISPSILH
 70
     0
  9
$DIMSCALE
 40
1.0
  9
$DIMASZ
 40
0.18
  9
$DIMEXO
 40
0.0625
  9
$DIMDLI
 40
0.38
  9
$DIMRND
 40
0.0
  9
$DIMDLE
 40
0.0
  9
$DIMEXE
 40
0.18
  9
$DIMTP
 40
0.0
  9
$DIMTM
 40
0.0
  9
$DIMTXT
 40
0.18
  9
$DIMCEN
 40
0.09
  9
$DIMTSZ
 40
0.0
  9
$DIMTOL
 70
     0
  9
$DIMLIM
 70
     0
  9
$DIMTIH
 70
     1
  9
$DIMTOH
 70
     1
  9
$DIMSE1
 70
     0
  9
$DIMSE2
 70
     0
  9
$DIMTAD
 70
     0
  9
$DIMZIN
 70
     0
  9
$DIMBLK
  1

  9
$DIMASO
 70
     1
  9
$DIMSHO
 70
     1
  9
$DIMPOST
  1

  9
$DIMAPOST
  1

  9
$DIMALT
 70
     0
  9
$DIMALTD
 70
     2
  9
$DIMALTF
 40
25.4
  9
$DIMLFAC
 40
1.0
  9
$DIMTOFL
 70
     0
  9
$DIMTVP
 40
0.0
  9
$DIMTIX
 70
     0
  9
$DIMSOXD
 70
     0
  9
$DIMSAH
 70
     0
  9
$DIMBLK1
  1

  9
$DIMBLK2
  1

  9
$DIMSTYLE
  2
Standard
  9
$DIMCLRD
 70
     0
  9
$DIMCLRE
 70
     0
  9
$DIMCLRT
 70
     0
  9
$DIMTFAC
 40
1.0
  9
$DIMGAP
 40
0.09
  9
$DIMJUST
 70
     0
  9
$DIMSD1
 70
     0
  9
$DIMSD2
 70
     0
  9
$DIMTOLJ
 70
     1
  9
$DIMTZIN
 70
     0
  9
$DIMALTZ
 70
     0
  9
$DIMALTTZ
 70
     0
  9
$DIMUPT
 70
     0
  9
$DIMDEC
 70
     4
  9
$DIMTDEC
 70
     4
  9
$DIMALTU
 70
     2
  9
$DIMALTTD
 70
     2
  9
$DIMTXSTY
  7
Standard
  9
$DIMAUNIT
 70
     0
  9
$DIMADEC
 70
     0
  9
$DIMALTRND
 40
0.0
  9
$DIMAZIN
 70
     0
  9
$DIMDSEP
 70
    46
  9
$DIMATFIT
 70
     3
  9
$DIMFRAC
 70
     0
  9
$DIMLDRBLK
  1

  9
$DIMLUNIT
 70
     2
  9
$DIMLWD
 70
    -2
  9
$DIMLWE
 70
    -2
  9
$DIMTMOVE
 70
     0
  9
$LUNITS
 70
     2
  9
$LUPREC
 70
     4
  9
$SKETCHINC
 40
0.1
  9
$FILLETRAD
 40
0.0
  9
$AUNITS
 70
     0
  9
$AUPREC
 70
     0
  9
$MENU
  1
.
  9
$ELEVATION
 40
0.0
  9
$PELEVATION
 40
0.0
  9
$THICKNESS
 40
0.0
  9
$LIMCHECK
 70
     0
  9
$CHAMFERA
 40
0.0
  9
$CHAMFERB
 40
0.0
  9
$CHAMFERC
 40
0.0
  9
$CHAMFERD
 40
0.0
  9
$SKPOLY
 70
     0
  9
$TDCREATE
 40
2453354.092125822
  9
$TDUCREATE
 40
2453353.717125822
  9
$TDUPDATE
 40
2454792.358728264
  9
$TDUUPDATE
 40
2454791.983728264
  9
$TDINDWG
 40
0.0500809028
  9
$TDUSRTIMER
 40
0.0500456829
  9
$USRTIMER
 70
     1
  9
$ANGBASE
 50
0.0
  9
$ANGDIR
 70
     0
  9
$PDMODE
 70
     0
  9
$PDSIZE
 40
0.0
  9
$PLINEWID
 40
0.0
  9
$SPLFRAME
 70
     0
  9
$SPLINETYPE
 70
     6
  9
$SPLINESEGS
 70
     8
  9
$HANDSEED
  5
1C4
  9
$SURFTAB1
 70
     6
  9
$SURFTAB2
 70
     6
  9
$SURFTYPE
 70
     6
  9
$SURFU
 70
     6
  9
$SURFV
 70
     6
  9
$UCSBASE
  2

  9
$UCSNAME
  2

  9
$UCSORG
 10
0.0
 20
0.0
 30
0.0
  9
$UCSXDIR
 10
1.0
 20
0.0
 30
0.0
  9
$UCSYDIR
 10
0.0
 20
1.0
 30
0.0
  9
$UCSORTHOREF
  2

  9
$UCSORTHOVIEW
 70
     0
  9
$UCSORGTOP
 10
0.0
 20
0.0
 30
0.0
  9
$UCSORGBOTTOM
 10
0.0
 20
0.0
 30
0.0
  9
$UCSORGLEFT
 10
0.0
 20
0.0
 30
0.0
  9
$UCSORGRIGHT
 10
0.0
 20
0.0
 30
0.0
  9
$UCSORGFRONT
 10
0.0
 20
0.0
 30
0.0
  9
$UCSORGBACK
 10
0.0
 20
0.0
 30
0.0
  9
$PUCSBASE
  2

  9
$PUCSNAME
  2

  9
$PUCSORG
 10
0.0
 20
0.0
 30
0.0
  9
$PUCSXDIR
 10
1.0
 20
0.0
 30
0.0
  9
$PUCSYDIR
 10
0.0
 20
1.0
 30
0.0
  9
$PUCSORTHOREF
  2

  9
$PUCSORTHOVIEW
 70
     0
  9
$PUCSORGTOP
 10
0.0
 20
0.0
 30
0.0
  9
$PUCSORGBOTTOM
 10
0.0
 20
0.0
 30
0.0
  9
$PUCSORGLEFT
 10
0.0
 20
0.0
 30
0.0
  9
$PUCSORGRIGHT
 10
0.0
 20
0.0
 30
0.0
  9
$PUCSORGFRONT
 10
0.0
 20
0.0
 30
0.0
  9
$PUCSORGBACK
 10
0.0
 20
0.0
 30
0.0
  9
$USERI1
 70
     0
  9
$USERI2
 70
     0
  9
$USERI3
 70
     0
  9
$USERI4
 70
     0
  9
$USERI5
 70
     0
  9
$USERR1
 40
0.0
  9
$USERR2
 40
0.0
  9
$USERR3
 40
0.0
  9
$USERR4
 40
0.0
  9
$USERR5
 40
0.0
  9
$WORLDVIEW
 70
     1
  9
$SHADEDGE
 70
     3
  9
$SHADEDIF
 70
    70
  9
$TILEMODE
 70
     1
  9
$MAXACTVP
 70
    64
  9
$PINSBASE
 10
0.0
 20
0.0
 30
0.0
  9
$PLIMCHECK
 70
     0
  9
$PEXTMIN
 10
0.0
 20
0.0
 30
0.0
  9
$PEXTMAX
 10
0.0
 20
0.0
 30
0.0
  9
$PLIMMIN
 10
0.0
 20
0.0
  9
$PLIMMAX
 10
12.0
 20
9.0
  9
$UNITMODE
 70
     0
  9
$VISRETAIN
 70
     1
  9
$PLINEGEN
 70
     0
  9
$PSLTSCALE
 70
     1
  9
$TREEDEPTH
 70
  3020
  9
$CMLSTYLE
  2
Standard
  9
$CMLJUST
 70
     0
  9
$CMLSCALE
 40
1.0
  9
$PROXYGRAPHICS
 70
     1
  9
$MEASUREMENT
 70
     0
  9
$CELWEIGHT
370
    -1
  9
$ENDCAPS
280
     0
  9
$JOINSTYLE
280
     0
  9
$LWDISPLAY
290
     0
  9
$INSUNITS
 70
     1
  9
$HYPERLINKBASE
  1

  9
$STYLESHEET
  1

  9
$XEDIT
290
     0
  9
$CEPSNTYPE
380
     0
  9
$PSTYLEMODE
290
     0
  9
$FINGERPRINTGUID
  2
{8BAE0D3F-6380-4E3D-B0D1-267E31F469C1}
  9
$VERSIONGUID
  2
{6F1AD05E-3764-4268-ADD0-261F181DCA83}
  9
$EXTNAMES
290
     1
  9
$PSVPSCALE
 40
0.0
  9
$OLESTARTUP
290
     0
  9
$SORTENTS
280
   127
  9
$INDEXCTL
280
     0
  9
$HIDETEXT
280
     1
  9
$XCLIPFRAME
290
     0
  9
$HALOGAP
280
     0
  9
$OBSCOLOR
 70
   257
  9
$OBSLTYPE
280
     0
  9
$INTERSECTIONDISPLAY
280
     0
  9
$INTERSECTIONCOLOR
 70
   257
  9
$DIMASSOC
280
     2
  9
$PROJECTNAME
  1

  0
ENDSEC
  0
SECTION
  2
CLASSES
  0
CLASS
  1
ACDBDICTIONARYWDFLT
  2
AcDbDictionaryWithDefault
  3
ObjectDBX Classes
 90
        0
 91
        3
280
     0
281
     0
  0
CLASS
  1
ACDBPLACEHOLDER
  2
AcDbPlaceHolder
  3
ObjectDBX Classes
 90
        0
 91
        1
280
     0
281
     0
  0
CLASS
  1
LAYOUT
  2
AcDbLayout
  3
ObjectDBX Classes
 90
        0
 91
        1
280
     0
281
     0
  0
CLASS
  1
DICTIONARYVAR
  2
AcDbDictionaryVar
  3
ObjectDBX Classes
 90
        0
 91
        3
280
     0
281
     0
  0
CLASS
  1
TABLESTYLE
  2
AcDbTableStyle
  3
ObjectDBX Classes
 90
     2047
 91
        3
280
     0
281
     0
  0
ENDSEC
  0
SECTION
  2
TABLES
  0
TABLE
  2
VPORT
  5
8
330
0
100
AcDbSymbolTable
 70
     2
  0
VPORT
  5
97
330
8
100
AcDbSymbolTableRecord
100
AcDbViewportTableRecord
  2
*Active
 70
     0
 10
0.0
 20
0.0
 11
1.0
 21
1.0
 12
26.67691801675298
 22
11.7184496550202
 13
0.0
 23
0.0
 14
0.5
 24
0.5
 15
0.5
 25
0.5
 16
0.0
 26
0.0
 36
1.0
 17
0.0
 27
0.0
 37
0.0
 40
14.71456052967941
 41
2.031468531468532
 42
50.0
 43
0.0
 44
0.0
 50
0.0
 51
0.0
 71
    16
 72
  1000
 73
     1
 74
     1
 75
     0
 76
     0
 77
     0
 78
     0
281
     0
 65
     0
110
0.0
120
0.0
130
0.0
111
1.0
121
0.0
131
0.0
112
0.0
122
1.0
132
0.0
 79
     0
146
0.0
  0
ENDTAB
  0
TABLE
  2
LTYPE
  5
5
330
0
100
AcDbSymbolTable
 70
     1
  0
LTYPE
  5
14
330
5
100
AcDbSymbolTableRecord
100
AcDbLinetypeTableRecord
  2
ByBlock
 70
     0
  3

 72
    65
 73
     0
 40
0.0
  0
LTYPE
  5
15
330
5
100
AcDbSymbolTableRecord
100
AcDbLinetypeTableRecord
  2
ByLayer
 70
     0
  3

 72
    65
 73
     0
 40
0.0
  0
LTYPE
  5
16
330
5
100
AcDbSymbolTableRecord
100
AcDbLinetypeTableRecord
  2
Continuous
 70
     0
  3
Solid line
 72
    65
 73
     0
 40
0.0
  0
ENDTAB
  0
TABLE
  2
LAYER
  5
2
330
0
100
AcDbSymbolTable
 70
     2
  0
LAYER
  5
10
330
2
100
AcDbSymbolTableRecord
100
AcDbLayerTableRecord
  2
0
 70
     0
 62
     7
  6
Continuous
370
    -3
390
F
  0
LAYER
  5
EB
330
2
100
AcDbSymbolTableRecord
100
AcDbLayerTableRecord
  2
DEFPOINTS
 70
     0
 62
     7
  6
Continuous
290
     0
370
    -3
390
F
  0
ENDTAB
  0
TABLE
  2
STYLE
  5
3
330
0
100
AcDbSymbolTable
 70
     1
  0
STYLE
  5
11
330
3
100
AcDbSymbolTableRecord
100
AcDbTextStyleTableRecord
  2
Standard
 70
     0
 40
0.0
 41
1.0
 50
0.0
 71
     0
 42
0.2
  3
txt
  4

  0
ENDTAB
  0
TABLE
  2
VIEW
  5
6
330
0
100
AcDbSymbolTable
 70
     0
  0
ENDTAB
  0
TABLE
  2
UCS
  5
7
330
0
100
AcDbSymbolTable
 70
     0
  0
ENDTAB
  0
TABLE
  2
APPID
  5
9
330
0
100
AcDbSymbolTable
 70
     1
  0
APPID
  5
12
330
9
100
AcDbSymbolTableRecord
100
AcDbRegAppTableRecord
  2
ACAD
 70
     0
  0
ENDTAB
  0
TABLE
  2
DIMSTYLE
  5
A
330
0
100
AcDbSymbolTable
 70
     1
100
AcDbDimStyleTable
  0
DIMSTYLE
105
27
330
A
100
AcDbSymbolTableRecord
100
AcDbDimStyleTableRecord
  2
Standard
 70
     0
340
11
  0
ENDTAB
  0
TABLE
  2
BLOCK_RECORD
  5
1
330
0
100
AcDbSymbolTable
 70
     1
  0
BLOCK_RECORD
  5
1F
330
1
100
AcDbSymbolTableRecord
100
AcDbBlockTableRecord
  2
*Model_Space
340
22
  0
BLOCK_RECORD
  5
73
330
1
100
AcDbSymbolTableRecord
100
AcDbBlockTableRecord
  2
*Paper_Space
340
74
  0
BLOCK_RECORD
  5
9B
330
1
100
AcDbSymbolTableRecord
100
AcDbBlockTableRecord
  2
*Paper_Space0
340
9C
  0
ENDTAB
  0
ENDSEC
  0
SECTION
  2
BLOCKS
  0
BLOCK
  5
20
330
1F
100
AcDbEntity
  8
0
100
AcDbBlockBegin
  2
*Model_Space
 70
     0
 71
     0
 10
0.0
 20
0.0
 30
0.0
  3
*Model_Space
  1

  0
ENDBLK
  5
21
330
1F
100
AcDbEntity
  8
0
100
AcDbBlockEnd
  0
BLOCK
  5
75
330
73
100
AcDbEntity
 67
     1
  8
0
100
AcDbBlockBegin
  2
*Paper_Space
 70
     0
 71
     0
 10
0.0
 20
0.0
 30
0.0
  3
*Paper_Space
  1

  0
ENDBLK
  5
76
330
73
100
AcDbEntity
 67
     1
  8
0
100
AcDbBlockEnd
  0
BLOCK
  5
1C2
330
9B
100
AcDbEntity
  8
0
100
AcDbBlockBegin
  2
*Paper_Space0
 70
     0
 71
     0
 10
0.0
 20
0.0
 30
0.0
  3
*Paper_Space0
  1

  0
ENDBLK
  5
1C3
330
9B
100
AcDbEntity
  8
0
100
AcDbBlockEnd
  0
ENDSEC
  0
SECTION
  2
ENTITIES
  0
LINE
  5
9D
330
1F
100
AcDbEntity
  8
0
  6
Continuous
 62
     7
370
    15
100
AcDbLine
 10
27.69516581125369
 20
8.779936779925205
 30
0.0
 11
27.69516581125369
 21
14.53569487592524
 31
0.0
  0
LINE
  5
9E
330
1F
100
AcDbEntity
  8
0
  6
Continuous
 62
     7
370
    15
100
AcDbLine
 10
27.69516581125369
 20
14.53569487592524
 30
0.0
 11
22.44794712646215
 21
14.53569487592524
 31
0.0
  0
LINE
  5
9F
330
1F
100
AcDbEntity
  8
0
  6
Continuous
 62
     7
370
    15
100
AcDbLine
 10
22.44794712646215
 20
14.53569487592524
 30
0.0
 11
22.44794712646172
 21
16.41058934399311
 31
0.0
  0
LINE
  5
A0
330
1F
100
AcDbEntity
  8
0
  6
Continuous
 62
     7
370
    15
100
AcDbLine
 10
22.44794712646172
 20
16.41058934399311
 30
0.0
 11
17.69517361039387
 21
11.65781582792526
 31
0.0
  0
LINE
  5
A1
330
1F
100
AcDbEntity
  8
0
  6
Continuous
 62
     7
370
    15
100
AcDbLine
 10
17.69517361039387
 20
11.65781582792526
 30
0.0
 11
22.44794712646215
 21
6.905042311856842
 31
0.0
  0
LINE
  5
A2
330
1F
100
AcDbEntity
  8
0
  6
Continuous
 62
     7
370
    15
100
AcDbLine
 10
22.44794712646215
 20
6.905042311856842
 30
0.0
 11
22.44794712646215
 21
8.77993677992524
 31
0.0
  0
LINE
  5
A3
330
1F
100
AcDbEntity
  8
0
  6
Continuous
 62
     7
370
    15
100
AcDbLine
 10
22.44794712646215
 20
8.77993677992524
 30
0.0
 11
27.69516581125369
 21
8.779936779925205
 31
0.0
  0
LINE
  5
FC
330
1F
100
AcDbEntity
  8
0
100
AcDbLine
 10
27.66817311898023
 20
8.779936779925203
 30
0.0
 11
27.69516581125369
 21
8.806929472198668
 31
0.0
  0
LINE
  5
FD
330
1F
100
AcDbEntity
  8
0
100
AcDbLine
 10
27.59321980017445
 20
8.779936779925203
 30
0.0
 11
27.69516581125369
 21
8.881882791004443
 31
0.0
  0
LINE
  5
FE
330
1F
100
AcDbEntity
  8
0
100
AcDbLine
 10
27.51826648136868
 20
8.779936779925206
 30
0.0
 11
27.69516581125369
 21
8.956836109810219
 31
0.0
  0
LINE
  5
FF
330
1F
100
AcDbEntity
  8
0
100
AcDbLine
 10
27.44331316256291
 20
8.779936779925206
 30
0.0
 11
27.69516581125369
 21
9.031789428615994
 31
0.0
  0
LINE
  5
100
330
1F
100
AcDbEntity
  8
0
100
AcDbLine
 10
27.36835984375713
 20
8.779936779925206
 30
0.0
 11
27.69516581125369
 21
9.10674274742177
 31
0.0
  0
LINE
  5
101
330
1F
100
AcDbEntity
  8
0
100
AcDbLine
 10
27.29340652495136
 20
8.779936779925208
 30
0.0
 11
27.69516581125369
 21
9.181696066227545
 31
0.0
  0
LINE
  5
102
330
1F
100
AcDbEntity
  8
0
100
AcDbLine
 10
27.21845320614558
 20
8.779936779925208
 30
0.0
 11
27.69516581125369
 21
9.25664938503332
 31
0.0
  0
LINE
  5
103
330
1F
100
AcDbEntity
  8
0
100
AcDbLine
 10
27.14349988733981
 20
8.779936779925208
 30
0.0
 11
27.69516581125369
 21
9.331602703839096
 31
0.0
  0
LINE
  5
104
330
1F
100
AcDbEntity
  8
0
100
AcDbLine
 10
27.06854656853403
 20
8.77993677992521
 30
0.0
 11
27.69516581125369
 21
9.406556022644871
 31
0.0
  0
LINE
  5
105
330
1F
100
AcDbEntity
  8
0
100
AcDbLine
 10
26.99359324972826
 20
8.77993677992521
 30
0.0
 11
27.69516581125369
 21
9.481509341450646
 31
0.0
  0
LINE
  5
106
330
1F
100
AcDbEntity
  8
0
100
AcDbLine
 10
26.91863993092248
 20
8.77993677992521
 30
0.0
 11
27.69516581125369
 21
9.556462660256422
 31
0.0
  0
LINE
  5
107
330
1F
100
AcDbEntity
  8
0
100
AcDbLine
 10
26.84368661211671
 20
8.77993677992521
 30
0.0
 11
27.69516581125369
 21
9.631415979062197
 31
0.0
  0
LINE
  5
108
330
1F
100
AcDbEntity
  8
0
100
AcDbLine
 10
26.76873329331093
 20
8.77993677992521
 30
0.0
 11
27.69516581125369
 21
9.706369297867973
 31
0.0
  0
LINE
  5
109
330
1F
100
AcDbEntity
  8
0
100
AcDbLine
 10
26.69377997450515
 20
8.77993677992521
 30
0.0
 11
27.69516581125369
 21
9.78132261667375
 31
0.0
  0
LINE
  5
10A
330
1F
100
AcDbEntity
  8
0
100
AcDbLine
 10
26.61882665569938
 20
8.779936779925212
 30
0.0
 11
27.69516581125369
 21
9.856275935479525
 31
0.0
  0
LINE
  5
10B
330
1F
100
AcDbEntity
  8
0
100
AcDbLine
 10
26.5438733368936
 20
8.77993677992521
 30
0.0
 11
27.69516581125369
 21
9.931229254285299
 31
0.0
  0
LINE
  5
10C
330
1F
100
AcDbEntity
  8
0
100
AcDbLine
 10
26.46892001808783
 20
8.779936779925212
 30
0.0
 11
27.69516581125369
 21
10.00618257309108
 31
0.0
  0
LINE
  5
10D
330
1F
100
AcDbEntity
  8
0
100
AcDbLine
 10
26.39396669928206
 20
8.779936779925212
 30
0.0
 11
27.69516581125369
 21
10.08113589189685
 31
0.0
  0
LINE
  5
10E
330
1F
100
AcDbEntity
  8
0
100
AcDbLine
 10
26.31901338047628
 20
8.779936779925212
 30
0.0
 11
27.69516581125369
 21
10.15608921070263
 31
0.0
  0
LINE
  5
10F
330
1F
100
AcDbEntity
  8
0
100
AcDbLine
 10
26.24406006167051
 20
8.779936779925213
 30
0.0
 11
27.69516581125369
 21
10.2310425295084
 31
0.0
  0
LINE
  5
110
330
1F
100
AcDbEntity
  8
0
100
AcDbLine
 10
26.16910674286473
 20
8.779936779925217
 30
0.0
 11
27.69516581125369
 21
10.30599584831418
 31
0.0
  0
LINE
  5
111
330
1F
100
AcDbEntity
  8
0
100
AcDbLine
 10
26.09415342405896
 20
8.779936779925215
 30
0.0
 11
27.69516581125369
 21
10.38094916711995
 31
0.0
  0
LINE
  5
112
330
1F
100
AcDbEntity
  8
0
100
AcDbLine
 10
26.01920010525319
 20
8.779936779925219
 30
0.0
 11
27.69516581125369
 21
10.45590248592572
 31
0.0
  0
LINE
  5
113
330
1F
100
AcDbEntity
  8
0
100
AcDbLine
 10
25.94424678644741
 20
8.779936779925219
 30
0.0
 11
27.69516581125369
 21
10.5308558047315
 31
0.0
  0
LINE
  5
114
330
1F
100
AcDbEntity
  8
0
100
AcDbLine
 10
25.86929346764163
 20
8.779936779925215
 30
0.0
 11
27.69516581125369
 21
10.60580912353728
 31
0.0
  0
LINE
  5
115
330
1F
100
AcDbEntity
  8
0
100
AcDbLine
 10
25.79434014883586
 20
8.779936779925219
 30
0.0
 11
27.69516581125369
 21
10.68076244234305
 31
0.0
  0
LINE
  5
116
330
1F
100
AcDbEntity
  8
0
100
AcDbLine
 10
25.71938683003009
 20
8.779936779925219
 30
0.0
 11
27.69516581125369
 21
10.75571576114883
 31
0.0
  0
LINE
  5
117
330
1F
100
AcDbEntity
  8
0
100
AcDbLine
 10
25.64443351122431
 20
8.779936779925215
 30
0.0
 11
27.69516581125369
 21
10.8306690799546
 31
0.0
  0
LINE
  5
118
330
1F
100
AcDbEntity
  8
0
100
AcDbLine
 10
25.56948019241853
 20
8.779936779925219
 30
0.0
 11
27.69516581125369
 21
10.90562239876038
 31
0.0
  0
LINE
  5
119
330
1F
100
AcDbEntity
  8
0
100
AcDbLine
 10
25.49452687361276
 20
8.779936779925219
 30
0.0
 11
27.69516581125369
 21
10.98057571756615
 31
0.0
  0
LINE
  5
11A
330
1F
100
AcDbEntity
  8
0
100
AcDbLine
 10
25.41957355480698
 20
8.77993677992522
 30
0.0
 11
27.69516581125369
 21
11.05552903637193
 31
0.0
  0
LINE
  5
11B
330
1F
100
AcDbEntity
  8
0
100
AcDbLine
 10
25.34462023600121
 20
8.779936779925219
 30
0.0
 11
27.69516581125369
 21
11.1304823551777
 31
0.0
  0
LINE
  5
11C
330
1F
100
AcDbEntity
  8
0
100
AcDbLine
 10
25.26966691719543
 20
8.77993677992522
 30
0.0
 11
27.69516581125369
 21
11.20543567398348
 31
0.0
  0
LINE
  5
11D
330
1F
100
AcDbEntity
  8
0
100
AcDbLine
 10
25.19471359838966
 20
8.77993677992522
 30
0.0
 11
27.69516581125369
 21
11.28038899278926
 31
0.0
  0
LINE
  5
11E
330
1F
100
AcDbEntity
  8
0
100
AcDbLine
 10
25.11976027958388
 20
8.779936779925219
 30
0.0
 11
27.69516581125369
 21
11.35534231159503
 31
0.0
  0
LINE
  5
11F
330
1F
100
AcDbEntity
  8
0
100
AcDbLine
 10
25.04480696077811
 20
8.779936779925224
 30
0.0
 11
27.69516581125369
 21
11.43029563040081
 31
0.0
  0
LINE
  5
120
330
1F
100
AcDbEntity
  8
0
100
AcDbLine
 10
24.96985364197234
 20
8.779936779925222
 30
0.0
 11
27.69516581125369
 21
11.50524894920658
 31
0.0
  0
LINE
  5
121
330
1F
100
AcDbEntity
  8
0
100
AcDbLine
 10
24.89490032316656
 20
8.779936779925224
 30
0.0
 11
27.69516581125369
 21
11.58020226801236
 31
0.0
  0
LINE
  5
122
330
1F
100
AcDbEntity
  8
0
100
AcDbLine
 10
24.81994700436078
 20
8.779936779925224
 30
0.0
 11
27.69516581125369
 21
11.65515558681813
 31
0.0
  0
LINE
  5
123
330
1F
100
AcDbEntity
  8
0
100
AcDbLine
 10
24.74499368555501
 20
8.779936779925224
 30
0.0
 11
27.69516581125369
 21
11.73010890562391
 31
0.0
  0
LINE
  5
124
330
1F
100
AcDbEntity
  8
0
100
AcDbLine
 10
24.67004036674924
 20
8.779936779925222
 30
0.0
 11
27.69516581125369
 21
11.80506222442968
 31
0.0
  0
LINE
  5
125
330
1F
100
AcDbEntity
  8
0
100
AcDbLine
 10
24.59508704794347
 20
8.779936779925228
 30
0.0
 11
27.69516581125369
 21
11.88001554323545
 31
0.0
  0
LINE
  5
126
330
1F
100
AcDbEntity
  8
0
100
AcDbLine
 10
24.52013372913769
 20
8.779936779925226
 30
0.0
 11
27.69516581125369
 21
11.95496886204123
 31
0.0
  0
LINE
  5
127
330
1F
100
AcDbEntity
  8
0
100
AcDbLine
 10
24.44518041033192
 20
8.779936779925226
 30
0.0
 11
27.69516581125369
 21
12.029922180847
 31
0.0
  0
LINE
  5
128
330
1F
100
AcDbEntity
  8
0
100
AcDbLine
 10
24.37022709152615
 20
8.779936779925228
 30
0.0
 11
27.69516581125369
 21
12.10487549965277
 31
0.0
  0
LINE
  5
129
330
1F
100
AcDbEntity
  8
0
100
AcDbLine
 10
22.43416321555707
 20
6.918826222761924
 30
0.0
 11
22.44794712646215
 21
6.932610133667002
 31
0.0
  0
LINE
  5
12A
330
1F
100
AcDbEntity
  8
0
100
AcDbLine
 10
24.29527377272037
 20
8.779936779925226
 30
0.0
 11
27.69516581125369
 21
12.17982881845855
 31
0.0
  0
LINE
  5
12B
330
1F
100
AcDbEntity
  8
0
100
AcDbLine
 10
22.39668655615418
 20
6.956302882164809
 30
0.0
 11
22.44794712646215
 21
7.007563452472774
 31
0.0
  0
LINE
  5
12C
330
1F
100
AcDbEntity
  8
0
100
AcDbLine
 10
24.2203204539146
 20
8.779936779925228
 30
0.0
 11
27.69516581125369
 21
12.25478213726432
 31
0.0
  0
LINE
  5
12D
330
1F
100
AcDbEntity
  8
0
100
AcDbLine
 10
22.3592098967513
 20
6.993779541567697
 30
0.0
 11
22.44794712646215
 21
7.082516771278549
 31
0.0
  0
LINE
  5
12E
330
1F
100
AcDbEntity
  8
0
100
AcDbLine
 10
24.14536713510883
 20
8.77993677992523
 30
0.0
 11
27.69516581125369
 21
12.3297354560701
 31
0.0
  0
LINE
  5
12F
330
1F
100
AcDbEntity
  8
0
100
AcDbLine
 10
22.32173323734841
 20
7.031256200970584
 30
0.0
 11
22.44794712646215
 21
7.15747009008432
 31
0.0
  0
LINE
  5
130
330
1F
100
AcDbEntity
  8
0
100
AcDbLine
 10
24.07041381630306
 20
8.77993677992523
 30
0.0
 11
27.69516581125369
 21
12.40468877487587
 31
0.0
  0
LINE
  5
131
330
1F
100
AcDbEntity
  8
0
100
AcDbLine
 10
22.28425657794552
 20
7.068732860373471
 30
0.0
 11
22.44794712646214
 21
7.232423408890092
 31
0.0
  0
LINE
  5
132
330
1F
100
AcDbEntity
  8
0
100
AcDbLine
 10
23.99546049749728
 20
8.779936779925228
 30
0.0
 11
27.69516581125369
 21
12.47964209368164
 31
0.0
  0
LINE
  5
133
330
1F
100
AcDbEntity
  8
0
100
AcDbLine
 10
22.24677991854264
 20
7.106209519776358
 30
0.0
 11
22.44794712646215
 21
7.307376727695869
 31
0.0
  0
LINE
  5
134
330
1F
100
AcDbEntity
  8
0
100
AcDbLine
 10
23.92050717869151
 20
8.77993677992523
 30
0.0
 11
27.69516581125369
 21
12.55459541248742
 31
0.0
  0
LINE
  5
135
330
1F
100
AcDbEntity
  8
0
100
AcDbLine
 10
22.20930325913975
 20
7.143686179179245
 30
0.0
 11
22.44794712646215
 21
7.382330046501641
 31
0.0
  0
LINE
  5
136
330
1F
100
AcDbEntity
  8
0
100
AcDbLine
 10
23.84555385988574
 20
8.779936779925231
 30
0.0
 11
27.69516581125369
 21
12.62954873129319
 31
0.0
  0
LINE
  5
137
330
1F
100
AcDbEntity
  8
0
100
AcDbLine
 10
22.17182659973686
 20
7.181162838582131
 30
0.0
 11
22.44794712646215
 21
7.457283365307416
 31
0.0
  0
LINE
  5
138
330
1F
100
AcDbEntity
  8
0
100
AcDbLine
 10
23.77060054107996
 20
8.779936779925231
 30
0.0
 11
27.69516581125369
 21
12.70450205009896
 31
0.0
  0
LINE
  5
139
330
1F
100
AcDbEntity
  8
0
100
AcDbLine
 10
22.13434994033398
 20
7.218639497985021
 30
0.0
 11
22.44794712646214
 21
7.532236684113188
 31
0.0
  0
LINE
  5
13A
330
1F
100
AcDbEntity
  8
0
100
AcDbLine
 10
23.69564722227419
 20
8.77993677992523
 30
0.0
 11
27.69516581125369
 21
12.77945536890473
 31
0.0
  0
LINE
  5
13B
330
1F
100
AcDbEntity
  8
0
100
AcDbLine
 10
22.09687328093109
 20
7.25611615738791
 30
0.0
 11
22.44794712646215
 21
7.607190002918965
 31
0.0
  0
LINE
  5
13C
330
1F
100
AcDbEntity
  8
0
100
AcDbLine
 10
23.62069390346841
 20
8.77993677992523
 30
0.0
 11
27.69516581125369
 21
12.85440868771051
 31
0.0
  0
LINE
  5
13D
330
1F
100
AcDbEntity
  8
0
100
AcDbLine
 10
22.0593966215282
 20
7.293592816790794
 30
0.0
 11
22.44794712646215
 21
7.682143321724737
 31
0.0
  0
LINE
  5
13E
330
1F
100
AcDbEntity
  8
0
100
AcDbLine
 10
23.54574058466264
 20
8.779936779925231
 30
0.0
 11
27.69516581125369
 21
12.92936200651628
 31
0.0
  0
LINE
  5
13F
330
1F
100
AcDbEntity
  8
0
100
AcDbLine
 10
22.02191996212532
 20
7.331069476193681
 30
0.0
 11
22.44794712646215
 21
7.757096640530511
 31
0.0
  0
LINE
  5
140
330
1F
100
AcDbEntity
  8
0
100
AcDbLine
 10
23.47078726585687
 20
8.779936779925233
 30
0.0
 11
27.69516581125369
 21
13.00431532532206
 31
0.0
  0
LINE
  5
141
330
1F
100
AcDbEntity
  8
0
100
AcDbLine
 10
21.98444330272243
 20
7.368546135596571
 30
0.0
 11
22.44794712646215
 21
7.832049959336283
 31
0.0
  0
LINE
  5
142
330
1F
100
AcDbEntity
  8
0
100
AcDbLine
 10
23.3958339470511
 20
8.779936779925235
 30
0.0
 11
27.69516581125369
 21
13.07926864412783
 31
0.0
  0
LINE
  5
143
330
1F
100
AcDbEntity
  8
0
100
AcDbLine
 10
21.94696664331954
 20
7.406022794999455
 30
0.0
 11
22.44794712646215
 21
7.907003278142057
 31
0.0
  0
LINE
  5
144
330
1F
100
AcDbEntity
  8
0
100
AcDbLine
 10
23.32088062824532
 20
8.779936779925231
 30
0.0
 11
27.69516581125369
 21
13.1542219629336
 31
0.0
  0
LINE
  5
145
330
1F
100
AcDbEntity
  8
0
100
AcDbLine
 10
21.90948998391666
 20
7.443499454402344
 30
0.0
 11
22.44794712646214
 21
7.981956596947829
 31
0.0
  0
LINE
  5
146
330
1F
100
AcDbEntity
  8
0
100
AcDbLine
 10
23.24592730943955
 20
8.779936779925235
 30
0.0
 11
27.69516581125369
 21
13.22917528173938
 31
0.0
  0
LINE
  5
147
330
1F
100
AcDbEntity
  8
0
100
AcDbLine
 10
21.87201332451377
 20
7.480976113805231
 30
0.0
 11
22.44794712646215
 21
8.056909915753604
 31
0.0
  0
LINE
  5
148
330
1F
100
AcDbEntity
  8
0
100
AcDbLine
 10
23.17097399063378
 20
8.779936779925235
 30
0.0
 11
27.69516581125369
 21
13.30412860054515
 31
0.0
  0
LINE
  5
149
330
1F
100
AcDbEntity
  8
0
100
AcDbLine
 10
21.83453666511089
 20
7.518452773208121
 30
0.0
 11
22.44794712646215
 21
8.131863234559377
 31
0.0
  0
LINE
  5
14A
330
1F
100
AcDbEntity
  8
0
100
AcDbLine
 10
23.096020671828
 20
8.779936779925237
 30
0.0
 11
27.69516581125369
 21
13.37908191935093
 31
0.0
  0
LINE
  5
14B
330
1F
100
AcDbEntity
  8
0
100
AcDbLine
 10
21.797060005708
 20
7.555929432611007
 30
0.0
 11
22.44794712646215
 21
8.206816553365153
 31
0.0
  0
LINE
  5
14C
330
1F
100
AcDbEntity
  8
0
100
AcDbLine
 10
23.02106735302223
 20
8.779936779925238
 30
0.0
 11
27.69516581125369
 21
13.4540352381567
 31
0.0
  0
LINE
  5
14D
330
1F
100
AcDbEntity
  8
0
100
AcDbLine
 10
21.75958334630512
 20
7.593406092013897
 30
0.0
 11
22.44794712646215
 21
8.281769872170925
 31
0.0
  0
LINE
  5
14E
330
1F
100
AcDbEntity
  8
0
100
AcDbLine
 10
22.94611403421646
 20
8.779936779925237
 30
0.0
 11
27.69516581125369
 21
13.52898855696247
 31
0.0
  0
LINE
  5
14F
330
1F
100
AcDbEntity
  8
0
100
AcDbLine
 10
21.72210668690223
 20
7.630882751416781
 30
0.0
 11
22.44794712646215
 21
8.356723190976702
 31
0.0
  0
LINE
  5
150
330
1F
100
AcDbEntity
  8
0
100
AcDbLine
 10
22.87116071541068
 20
8.779936779925235
 30
0.0
 11
27.69516581125369
 21
13.60394187576825
 31
0.0
  0
LINE
  5
151
330
1F
100
AcDbEntity
  8
0
100
AcDbLine
 10
21.68463002749934
 20
7.668359410819668
 30
0.0
 11
22.44794712646215
 21
8.431676509782474
 31
0.0
  0
LINE
  5
152
330
1F
100
AcDbEntity
  8
0
100
AcDbLine
 10
22.79620739660491
 20
8.779936779925238
 30
0.0
 11
27.69516581125369
 21
13.67889519457402
 31
0.0
  0
LINE
  5
153
330
1F
100
AcDbEntity
  8
0
100
AcDbLine
 10
21.64715336809646
 20
7.705836070222557
 30
0.0
 11
22.44794712646215
 21
8.506629828588247
 31
0.0
  0
LINE
  5
154
330
1F
100
AcDbEntity
  8
0
100
AcDbLine
 10
22.72125407779914
 20
8.779936779925237
 30
0.0
 11
27.69516581125369
 21
13.75384851337979
 31
0.0
  0
LINE
  5
155
330
1F
100
AcDbEntity
  8
0
100
AcDbLine
 10
21.60967670869357
 20
7.743312729625444
 30
0.0
 11
22.44794712646215
 21
8.581583147394019
 31
0.0
  0
LINE
  5
156
330
1F
100
AcDbEntity
  8
0
100
AcDbLine
 10
22.64630075899337
 20
8.779936779925238
 30
0.0
 11
27.69516581125369
 21
13.82880183218557
 31
0.0
  0
LINE
  5
157
330
1F
100
AcDbEntity
  8
0
100
AcDbLine
 10
21.57220004929068
 20
7.780789389028331
 30
0.0
 11
22.44794712646215
 21
8.656536466199794
 31
0.0
  0
LINE
  5
158
330
1F
100
AcDbEntity
  8
0
100
AcDbLine
 10
22.57134744018759
 20
8.77993677992524
 30
0.0
 11
27.69516581125369
 21
13.90375515099134
 31
0.0
  0
LINE
  5
159
330
1F
100
AcDbEntity
  8
0
100
AcDbLine
 10
21.5347233898878
 20
7.818266048431218
 30
0.0
 11
22.44794712646215
 21
8.731489785005568
 31
0.0
  0
LINE
  5
15A
330
1F
100
AcDbEntity
  8
0
100
AcDbLine
 10
22.49639412138182
 20
8.77993677992524
 30
0.0
 11
27.69516581125369
 21
13.97870846979711
 31
0.0
  0
LINE
  5
15B
330
1F
100
AcDbEntity
  8
0
100
AcDbLine
 10
21.49724673048491
 20
7.855742707834107
 30
0.0
 11
27.69516581125369
 21
14.05366178860289
 31
0.0
  0
LINE
  5
15C
330
1F
100
AcDbEntity
  8
0
100
AcDbLine
 10
21.45977007108203
 20
7.893219367236994
 30
0.0
 11
27.69516581125369
 21
14.12861510740866
 31
0.0
  0
LINE
  5
15D
330
1F
100
AcDbEntity
  8
0
100
AcDbLine
 10
21.42229341167914
 20
7.930696026639881
 30
0.0
 11
27.69516581125369
 21
14.20356842621444
 31
0.0
  0
LINE
  5
15E
330
1F
100
AcDbEntity
  8
0
100
AcDbLine
 10
21.38481675227625
 20
7.968172686042768
 30
0.0
 11
27.69516581125369
 21
14.27852174502021
 31
0.0
  0
LINE
  5
15F
330
1F
100
AcDbEntity
  8
0
100
AcDbLine
 10
21.34734009287337
 20
8.005649345445654
 30
0.0
 11
27.69516581125369
 21
14.35347506382598
 31
0.0
  0
LINE
  5
160
330
1F
100
AcDbEntity
  8
0
100
AcDbLine
 10
21.30986343347048
 20
8.043126004848544
 30
0.0
 11
27.69516581125369
 21
14.42842838263176
 31
0.0
  0
LINE
  5
161
330
1F
100
AcDbEntity
  8
0
100
AcDbLine
 10
21.27238677406759
 20
8.08060266425143
 30
0.0
 11
27.69516581125369
 21
14.50338170143753
 31
0.0
  0
LINE
  5
162
330
1F
100
AcDbEntity
  8
0
100
AcDbLine
 10
21.23491011466471
 20
8.118079323654317
 30
0.0
 11
27.65252566693563
 21
14.53569487592524
 31
0.0
  0
LINE
  5
163
330
1F
100
AcDbEntity
  8
0
100
AcDbLine
 10
21.19743345526182
 20
8.155555983057203
 30
0.0
 11
27.57757234812986
 21
14.53569487592524
 31
0.0
  0
LINE
  5
164
330
1F
100
AcDbEntity
  8
0
100
AcDbLine
 10
21.15995679585894
 20
8.193032642460091
 30
0.0
 11
27.50261902932409
 21
14.53569487592524
 31
0.0
  0
LINE
  5
165
330
1F
100
AcDbEntity
  8
0
100
AcDbLine
 10
21.12248013645605
 20
8.230509301862977
 30
0.0
 11
27.42766571051831
 21
14.53569487592524
 31
0.0
  0
LINE
  5
166
330
1F
100
AcDbEntity
  8
0
100
AcDbLine
 10
21.08500347705316
 20
8.26798596126587
 30
0.0
 11
27.35271239171254
 21
14.53569487592524
 31
0.0
  0
LINE
  5
167
330
1F
100
AcDbEntity
  8
0
100
AcDbLine
 10
21.04752681765028
 20
8.305462620668754
 30
0.0
 11
27.27775907290676
 21
14.53569487592524
 31
0.0
  0
LINE
  5
168
330
1F
100
AcDbEntity
  8
0
100
AcDbLine
 10
21.01005015824739
 20
8.34293928007164
 30
0.0
 11
27.20280575410099
 21
14.53569487592524
 31
0.0
  0
LINE
  5
169
330
1F
100
AcDbEntity
  8
0
100
AcDbLine
 10
20.9725734988445
 20
8.38041593947453
 30
0.0
 11
27.12785243529522
 21
14.53569487592524
 31
0.0
  0
LINE
  5
16A
330
1F
100
AcDbEntity
  8
0
100
AcDbLine
 10
20.93509683944162
 20
8.417892598877414
 30
0.0
 11
27.05289911648944
 21
14.53569487592524
 31
0.0
  0
LINE
  5
16B
330
1F
100
AcDbEntity
  8
0
100
AcDbLine
 10
20.89762018003873
 20
8.455369258280303
 30
0.0
 11
26.97794579768367
 21
14.53569487592524
 31
0.0
  0
LINE
  5
16C
330
1F
100
AcDbEntity
  8
0
100
AcDbLine
 10
20.86014352063584
 20
8.49284591768319
 30
0.0
 11
26.90299247887789
 21
14.53569487592524
 31
0.0
  0
LINE
  5
16D
330
1F
100
AcDbEntity
  8
0
100
AcDbLine
 10
20.82266686123296
 20
8.530322577086078
 30
0.0
 11
26.82803916007212
 21
14.53569487592524
 31
0.0
  0
LINE
  5
16E
330
1F
100
AcDbEntity
  8
0
100
AcDbLine
 10
20.78519020183007
 20
8.567799236488964
 30
0.0
 11
26.75308584126635
 21
14.53569487592524
 31
0.0
  0
LINE
  5
16F
330
1F
100
AcDbEntity
  8
0
100
AcDbLine
 10
20.74771354242719
 20
8.605275895891852
 30
0.0
 11
26.67813252246058
 21
14.53569487592524
 31
0.0
  0
LINE
  5
170
330
1F
100
AcDbEntity
  8
0
100
AcDbLine
 10
20.7102368830243
 20
8.64275255529474
 30
0.0
 11
26.6031792036548
 21
14.53569487592524
 31
0.0
  0
LINE
  5
171
330
1F
100
AcDbEntity
  8
0
100
AcDbLine
 10
20.67276022362141
 20
8.680229214697626
 30
0.0
 11
26.52822588484903
 21
14.53569487592524
 31
0.0
  0
LINE
  5
172
330
1F
100
AcDbEntity
  8
0
100
AcDbLine
 10
20.63528356421853
 20
8.717705874100515
 30
0.0
 11
26.45327256604325
 21
14.53569487592524
 31
0.0
  0
LINE
  5
173
330
1F
100
AcDbEntity
  8
0
100
AcDbLine
 10
20.59780690481564
 20
8.755182533503403
 30
0.0
 11
26.37831924723748
 21
14.53569487592524
 31
0.0
  0
LINE
  5
174
330
1F
100
AcDbEntity
  8
0
100
AcDbLine
 10
20.56033024541275
 20
8.792659192906289
 30
0.0
 11
26.30336592843171
 21
14.53569487592524
 31
0.0
  0
LINE
  5
175
330
1F
100
AcDbEntity
  8
0
100
AcDbLine
 10
20.52285358600987
 20
8.830135852309176
 30
0.0
 11
26.22841260962593
 21
14.53569487592524
 31
0.0
  0
LINE
  5
176
330
1F
100
AcDbEntity
  8
0
100
AcDbLine
 10
20.48537692660699
 20
8.867612511712066
 30
0.0
 11
26.15345929082016
 21
14.53569487592524
 31
0.0
  0
LINE
  5
177
330
1F
100
AcDbEntity
  8
0
100
AcDbLine
 10
20.4479002672041
 20
8.905089171114952
 30
0.0
 11
26.07850597201439
 21
14.53569487592524
 31
0.0
  0
LINE
  5
178
330
1F
100
AcDbEntity
  8
0
100
AcDbLine
 10
20.41042360780121
 20
8.94256583051784
 30
0.0
 11
26.00355265320861
 21
14.53569487592524
 31
0.0
  0
LINE
  5
179
330
1F
100
AcDbEntity
  8
0
100
AcDbLine
 10
20.37294694839833
 20
8.980042489920729
 30
0.0
 11
25.92859933440284
 21
14.53569487592524
 31
0.0
  0
LINE
  5
17A
330
1F
100
AcDbEntity
  8
0
100
AcDbLine
 10
20.33547028899544
 20
9.017519149323613
 30
0.0
 11
25.85364601559707
 21
14.53569487592524
 31
0.0
  0
LINE
  5
17B
330
1F
100
AcDbEntity
  8
0
100
AcDbLine
 10
20.29799362959255
 20
9.054995808726503
 30
0.0
 11
25.7786926967913
 21
14.53569487592524
 31
0.0
  0
LINE
  5
17C
330
1F
100
AcDbEntity
  8
0
100
AcDbLine
 10
20.26051697018967
 20
9.092472468129388
 30
0.0
 11
25.70373937798552
 21
14.53569487592524
 31
0.0
  0
LINE
  5
17D
330
1F
100
AcDbEntity
  8
0
100
AcDbLine
 10
20.22304031078678
 20
9.129949127532276
 30
0.0
 11
25.62878605917975
 21
14.53569487592524
 31
0.0
  0
LINE
  5
17E
330
1F
100
AcDbEntity
  8
0
100
AcDbLine
 10
20.18556365138389
 20
9.167425786935162
 30
0.0
 11
25.55383274037397
 21
14.53569487592524
 31
0.0
  0
LINE
  5
17F
330
1F
100
AcDbEntity
  8
0
100
AcDbLine
 10
20.14808699198101
 20
9.204902446338052
 30
0.0
 11
25.4788794215682
 21
14.53569487592524
 31
0.0
  0
LINE
  5
180
330
1F
100
AcDbEntity
  8
0
100
AcDbLine
 10
20.11061033257812
 20
9.24237910574094
 30
0.0
 11
25.40392610276243
 21
14.53569487592524
 31
0.0
  0
LINE
  5
181
330
1F
100
AcDbEntity
  8
0
100
AcDbLine
 10
20.07313367317524
 20
9.279855765143825
 30
0.0
 11
25.32897278395665
 21
14.53569487592524
 31
0.0
  0
LINE
  5
182
330
1F
100
AcDbEntity
  8
0
100
AcDbLine
 10
20.03565701377235
 20
9.317332424546715
 30
0.0
 11
25.25401946515088
 21
14.53569487592524
 31
0.0
  0
LINE
  5
183
330
1F
100
AcDbEntity
  8
0
100
AcDbLine
 10
19.99818035436946
 20
9.354809083949599
 30
0.0
 11
25.1790661463451
 21
14.53569487592524
 31
0.0
  0
LINE
  5
184
330
1F
100
AcDbEntity
  8
0
100
AcDbLine
 10
19.96070369496658
 20
9.392285743352488
 30
0.0
 11
25.10411282753933
 21
14.53569487592524
 31
0.0
  0
LINE
  5
185
330
1F
100
AcDbEntity
  8
0
100
AcDbLine
 10
19.92322703556369
 20
9.429762402755376
 30
0.0
 11
25.02915950873356
 21
14.53569487592524
 31
0.0
  0
LINE
  5
186
330
1F
100
AcDbEntity
  8
0
100
AcDbLine
 10
19.8857503761608
 20
9.467239062158262
 30
0.0
 11
24.95420618992778
 21
14.53569487592524
 31
0.0
  0
LINE
  5
187
330
1F
100
AcDbEntity
  8
0
100
AcDbLine
 10
19.84827371675792
 20
9.50471572156115
 30
0.0
 11
24.87925287112201
 21
14.53569487592524
 31
0.0
  0
LINE
  5
188
330
1F
100
AcDbEntity
  8
0
100
AcDbLine
 10
19.81079705735503
 20
9.542192380964037
 30
0.0
 11
24.80429955231623
 21
14.53569487592524
 31
0.0
  0
LINE
  5
189
330
1F
100
AcDbEntity
  8
0
100
AcDbLine
 10
19.77332039795214
 20
9.579669040366925
 30
0.0
 11
24.72934623351046
 21
14.53569487592524
 31
0.0
  0
LINE
  5
18A
330
1F
100
AcDbEntity
  8
0
100
AcDbLine
 10
19.73584373854926
 20
9.617145699769809
 30
0.0
 11
24.65439291470469
 21
14.53569487592524
 31
0.0
  0
LINE
  5
18B
330
1F
100
AcDbEntity
  8
0
100
AcDbLine
 10
19.69836707914637
 20
9.654622359172699
 30
0.0
 11
24.57943959589891
 21
14.53569487592524
 31
0.0
  0
LINE
  5
18C
330
1F
100
AcDbEntity
  8
0
100
AcDbLine
 10
19.66089041974348
 20
9.692099018575584
 30
0.0
 11
24.50448627709314
 21
14.53569487592524
 31
0.0
  0
LINE
  5
18D
330
1F
100
AcDbEntity
  8
0
100
AcDbLine
 10
19.6234137603406
 20
9.729575677978474
 30
0.0
 11
24.42953295828737
 21
14.53569487592524
 31
0.0
  0
LINE
  5
18E
330
1F
100
AcDbEntity
  8
0
100
AcDbLine
 10
19.58593710093771
 20
9.767052337381362
 30
0.0
 11
24.35457963948159
 21
14.53569487592524
 31
0.0
  0
LINE
  5
18F
330
1F
100
AcDbEntity
  8
0
100
AcDbLine
 10
19.54846044153483
 20
9.804528996784251
 30
0.0
 11
24.27962632067582
 21
14.53569487592524
 31
0.0
  0
LINE
  5
190
330
1F
100
AcDbEntity
  8
0
100
AcDbLine
 10
19.51098378213194
 20
9.842005656187135
 30
0.0
 11
24.20467300187005
 21
14.53569487592524
 31
0.0
  0
LINE
  5
191
330
1F
100
AcDbEntity
  8
0
100
AcDbLine
 10
19.47350712272906
 20
9.879482315590025
 30
0.0
 11
24.12971968306427
 21
14.53569487592524
 31
0.0
  0
LINE
  5
192
330
1F
100
AcDbEntity
  8
0
100
AcDbLine
 10
19.43603046332617
 20
9.91695897499291
 30
0.0
 11
24.0547663642585
 21
14.53569487592524
 31
0.0
  0
LINE
  5
193
330
1F
100
AcDbEntity
  8
0
100
AcDbLine
 10
19.39855380392328
 20
9.954435634395798
 30
0.0
 11
23.97981304545273
 21
14.53569487592524
 31
0.0
  0
LINE
  5
194
330
1F
100
AcDbEntity
  8
0
100
AcDbLine
 10
19.36107714452039
 20
9.991912293798684
 30
0.0
 11
23.90485972664695
 21
14.53569487592524
 31
0.0
  0
LINE
  5
195
330
1F
100
AcDbEntity
  8
0
100
AcDbLine
 10
19.32360048511751
 20
10.02938895320157
 30
0.0
 11
23.82990640784118
 21
14.53569487592524
 31
0.0
  0
LINE
  5
196
330
1F
100
AcDbEntity
  8
0
100
AcDbLine
 10
19.28612382571462
 20
10.06686561260446
 30
0.0
 11
23.7549530890354
 21
14.53569487592524
 31
0.0
  0
LINE
  5
197
330
1F
100
AcDbEntity
  8
0
100
AcDbLine
 10
19.24864716631174
 20
10.10434227200735
 30
0.0
 11
23.67999977022963
 21
14.53569487592524
 31
0.0
  0
LINE
  5
198
330
1F
100
AcDbEntity
  8
0
100
AcDbLine
 10
19.21117050690885
 20
10.14181893141023
 30
0.0
 11
23.60504645142386
 21
14.53569487592524
 31
0.0
  0
LINE
  5
199
330
1F
100
AcDbEntity
  8
0
100
AcDbLine
 10
19.17369384750596
 20
10.17929559081312
 30
0.0
 11
23.53009313261808
 21
14.53569487592524
 31
0.0
  0
LINE
  5
19A
330
1F
100
AcDbEntity
  8
0
100
AcDbLine
 10
19.13621718810308
 20
10.21677225021601
 30
0.0
 11
23.45513981381231
 21
14.53569487592524
 31
0.0
  0
LINE
  5
19B
330
1F
100
AcDbEntity
  8
0
100
AcDbLine
 10
19.09874052870019
 20
10.2542489096189
 30
0.0
 11
23.38018649500654
 21
14.53569487592524
 31
0.0
  0
LINE
  5
19C
330
1F
100
AcDbEntity
  8
0
100
AcDbLine
 10
19.06126386929731
 20
10.29172556902178
 30
0.0
 11
23.30523317620077
 21
14.53569487592524
 31
0.0
  0
LINE
  5
19D
330
1F
100
AcDbEntity
  8
0
100
AcDbLine
 10
19.02378720989442
 20
10.32920222842467
 30
0.0
 11
23.23027985739499
 21
14.53569487592524
 31
0.0
  0
LINE
  5
19E
330
1F
100
AcDbEntity
  8
0
100
AcDbLine
 10
18.98631055049153
 20
10.36667888782756
 30
0.0
 11
23.15532653858921
 21
14.53569487592524
 31
0.0
  0
LINE
  5
19F
330
1F
100
AcDbEntity
  8
0
100
AcDbLine
 10
18.94883389108865
 20
10.40415554723045
 30
0.0
 11
23.08037321978344
 21
14.53569487592524
 31
0.0
  0
LINE
  5
1A0
330
1F
100
AcDbEntity
  8
0
100
AcDbLine
 10
18.91135723168576
 20
10.44163220663333
 30
0.0
 11
23.00541990097767
 21
14.53569487592524
 31
0.0
  0
LINE
  5
1A1
330
1F
100
AcDbEntity
  8
0
100
AcDbLine
 10
18.87388057228288
 20
10.47910886603622
 30
0.0
 11
22.93046658217189
 21
14.53569487592524
 31
0.0
  0
LINE
  5
1A2
330
1F
100
AcDbEntity
  8
0
100
AcDbLine
 10
18.83640391287999
 20
10.51658552543911
 30
0.0
 11
22.85551326336612
 21
14.53569487592524
 31
0.0
  0
LINE
  5
1A3
330
1F
100
AcDbEntity
  8
0
100
AcDbLine
 10
18.7989272534771
 20
10.55406218484199
 30
0.0
 11
22.78055994456035
 21
14.53569487592524
 31
0.0
  0
LINE
  5
1A4
330
1F
100
AcDbEntity
  8
0
100
AcDbLine
 10
18.76145059407422
 20
10.59153884424488
 30
0.0
 11
22.70560662575457
 21
14.53569487592524
 31
0.0
  0
LINE
  5
1A5
330
1F
100
AcDbEntity
  8
0
100
AcDbLine
 10
18.72397393467133
 20
10.62901550364777
 30
0.0
 11
22.6306533069488
 21
14.53569487592524
 31
0.0
  0
LINE
  5
1A6
330
1F
100
AcDbEntity
  8
0
100
AcDbLine
 10
18.68649727526844
 20
10.66649216305066
 30
0.0
 11
22.55569998814303
 21
14.53569487592524
 31
0.0
  0
LINE
  5
1A7
330
1F
100
AcDbEntity
  8
0
100
AcDbLine
 10
18.64902061586556
 20
10.70396882245355
 30
0.0
 11
22.48074666933725
 21
14.53569487592524
 31
0.0
  0
LINE
  5
1A8
330
1F
100
AcDbEntity
  8
0
100
AcDbLine
 10
18.61154395646267
 20
10.74144548185643
 30
0.0
 11
22.44794712646214
 21
14.5778486518559
 31
0.0
  0
LINE
  5
1A9
330
1F
100
AcDbEntity
  8
0
100
AcDbLine
 10
18.57406729705978
 20
10.77892214125932
 30
0.0
 11
22.44794712646212
 21
14.65280197066166
 31
0.0
  0
LINE
  5
1AA
330
1F
100
AcDbEntity
  8
0
100
AcDbLine
 10
18.5365906376569
 20
10.81639880066221
 30
0.0
 11
22.4479471264621
 21
14.72775528946741
 31
0.0
  0
LINE
  5
1AB
330
1F
100
AcDbEntity
  8
0
100
AcDbLine
 10
18.49911397825401
 20
10.85387546006509
 30
0.0
 11
22.44794712646208
 21
14.80270860827317
 31
0.0
  0
LINE
  5
1AC
330
1F
100
AcDbEntity
  8
0
100
AcDbLine
 10
18.46163731885112
 20
10.89135211946798
 30
0.0
 11
22.44794712646207
 21
14.87766192707892
 31
0.0
  0
LINE
  5
1AD
330
1F
100
AcDbEntity
  8
0
100
AcDbLine
 10
18.42416065944824
 20
10.92882877887087
 30
0.0
 11
22.44794712646205
 21
14.95261524588468
 31
0.0
  0
LINE
  5
1AE
330
1F
100
AcDbEntity
  8
0
100
AcDbLine
 10
18.38668400004535
 20
10.96630543827376
 30
0.0
 11
22.44794712646203
 21
15.02756856469044
 31
0.0
  0
LINE
  5
1AF
330
1F
100
AcDbEntity
  8
0
100
AcDbLine
 10
18.34920734064247
 20
11.00378209767664
 30
0.0
 11
22.44794712646202
 21
15.10252188349619
 31
0.0
  0
LINE
  5
1B0
330
1F
100
AcDbEntity
  8
0
100
AcDbLine
 10
18.31173068123958
 20
11.04125875707953
 30
0.0
 11
22.447947126462
 21
15.17747520230195
 31
0.0
  0
LINE
  5
1B1
330
1F
100
AcDbEntity
  8
0
100
AcDbLine
 10
18.27425402183669
 20
11.07873541648242
 30
0.0
 11
22.44794712646198
 21
15.25242852110771
 31
0.0
  0
LINE
  5
1B2
330
1F
100
AcDbEntity
  8
0
100
AcDbLine
 10
18.23677736243381
 20
11.11621207588531
 30
0.0
 11
22.44794712646197
 21
15.32738183991346
 31
0.0
  0
LINE
  5
1B3
330
1F
100
AcDbEntity
  8
0
100
AcDbLine
 10
18.19930070303092
 20
11.15368873528819
 30
0.0
 11
22.44794712646195
 21
15.40233515871922
 31
0.0
  0
LINE
  5
1B4
330
1F
100
AcDbEntity
  8
0
100
AcDbLine
 10
18.16182404362803
 20
11.19116539469108
 30
0.0
 11
22.44794712646193
 21
15.47728847752498
 31
0.0
  0
LINE
  5
1B5
330
1F
100
AcDbEntity
  8
0
100
AcDbLine
 10
18.12434738422515
 20
11.22864205409397
 30
0.0
 11
22.44794712646191
 21
15.55224179633073
 31
0.0
  0
LINE
  5
1B6
330
1F
100
AcDbEntity
  8
0
100
AcDbLine
 10
18.08687072482226
 20
11.26611871349686
 30
0.0
 11
22.4479471264619
 21
15.62719511513649
 31
0.0
  0
LINE
  5
1B7
330
1F
100
AcDbEntity
  8
0
100
AcDbLine
 10
18.04939406541938
 20
11.30359537289974
 30
0.0
 11
22.44794712646188
 21
15.70214843394225
 31
0.0
  0
LINE
  5
1B8
330
1F
100
AcDbEntity
  8
0
100
AcDbLine
 10
18.01191740601649
 20
11.34107203230263
 30
0.0
 11
22.44794712646187
 21
15.777101752748
 31
0.0
  0
LINE
  5
1B9
330
1F
100
AcDbEntity
  8
0
100
AcDbLine
 10
17.97444074661361
 20
11.37854869170552
 30
0.0
 11
22.44794712646185
 21
15.85205507155376
 31
0.0
  0
LINE
  5
1BA
330
1F
100
AcDbEntity
  8
0
100
AcDbLine
 10
17.93696408721072
 20
11.41602535110841
 30
0.0
 11
22.44794712646183
 21
15.92700839035952
 31
0.0
  0
LINE
  5
1BB
330
1F
100
AcDbEntity
  8
0
100
AcDbLine
 10
17.89948742780783
 20
11.45350201051129
 30
0.0
 11
22.44794712646181
 21
16.00196170916527
 31
0.0
  0
LINE
  5
1BC
330
1F
100
AcDbEntity
  8
0
100
AcDbLine
 10
17.86201076840495
 20
11.49097866991418
 30
0.0
 11
22.44794712646179
 21
16.07691502797103
 31
0.0
  0
LINE
  5
1BD
330
1F
100
AcDbEntity
  8
0
100
AcDbLine
 10
17.82453410900206
 20
11.52845532931707
 30
0.0
 11
22.44794712646178
 21
16.15186834677679
 31
0.0
  0
LINE
  5
1BE
330
1F
100
AcDbEntity
  8
0
100
AcDbLine
 10
17.78705744959917
 20
11.56593198871995
 30
0.0
 11
22.44794712646176
 21
16.22682166558254
 31
0.0
  0
LINE
  5
1BF
330
1F
100
AcDbEntity
  8
0
100
AcDbLine
 10
17.74958079019629
 20
11.60340864812284
 30
0.0
 11
22.44794712646175
 21
16.3017749843883
 31
0.0
  0
LINE
  5
1C0
330
1F
100
AcDbEntity
  8
0
100
AcDbLine
 10
17.7121041307934
 20
11.64088530752573
 30
0.0
 11
22.44794712646173
 21
16.37672830319405
 31
0.0
  0
ENDSEC
  0
SECTION
  2
OBJECTS
  0
DICTIONARY
  5
C
330
0
100
AcDbDictionary
281
     1
  3
ACAD_COLOR
350
6C
  3
ACAD_GROUP
350
D
  3
ACAD_LAYOUT
350
1A
  3
ACAD_MATERIAL
350
6B
  3
ACAD_MLINESTYLE
350
17
  3
ACAD_PLOTSETTINGS
350
19
  3
ACAD_PLOTSTYLENAME
350
E
  3
ACAD_TABLESTYLE
350
92
  3
AcDbVariableDictionary
350
59
  0
DICTIONARY
  5
6C
102
{ACAD_REACTORS
330
C
102
}
330
C
100
AcDbDictionary
281
     1
  0
DICTIONARY
  5
D
102
{ACAD_REACTORS
330
C
102
}
330
C
100
AcDbDictionary
281
     1
  0
DICTIONARY
  5
1A
102
{ACAD_REACTORS
330
C
102
}
330
C
100
AcDbDictionary
281
     1
  3
Layout1
350
74
  3
Layout2
350
9C
  3
Model
350
22
  0
DICTIONARY
  5
6B
102
{ACAD_REACTORS
330
C
102
}
330
C
100
AcDbDictionary
281
     1
  0
DICTIONARY
  5
17
102
{ACAD_REACTORS
330
C
102
}
330
C
100
AcDbDictionary
281
     1
  3
Standard
350
18
  0
DICTIONARY
  5
19
102
{ACAD_REACTORS
330
C
102
}
330
C
100
AcDbDictionary
281
     1
  0
ACDBDICTIONARYWDFLT
  5
E
102
{ACAD_REACTORS
330
C
102
}
330
C
100
AcDbDictionary
281
     1
  3
Normal
350
F
100
AcDbDictionaryWithDefault
340
F
  0
DICTIONARY
  5
92
102
{ACAD_REACTORS
330
C
102
}
330
C
100
AcDbDictionary
281
     1
  0
DICTIONARY
  5
59
102
{ACAD_REACTORS
330
C
102
}
330
C
100
AcDbDictionary
281
     1
  3
CTABLESTYLE
350
98
  0
LAYOUT
  5
74
102
{ACAD_REACTORS
330
1A
102
}
330
1A
100
AcDbPlotSettings
  1

  2
\\ADSCCNDC1\hq601xrx1
  4

  6

 40
0.0
 41
0.0
 42
0.0
 43
0.0
 44
0.0
 45
0.0
 46
0.0
 47
0.0
 48
0.0
 49
0.0
140
0.0
141
0.0
142
1.0
143
1.0
 70
   688
 72
     0
 73
     0
 74
     5
  7

 75
    16
 76
     0
 77
     2
 78
   300
147
1.0
148
0.0
149
0.0
100
AcDbLayout
  1
Layout1
 70
     1
 71
     1
 10
0.0
 20
0.0
 11
12.0
 21
9.0
 12
0.0
 22
0.0
 32
0.0
 14
0.0
 24
0.0
 34
0.0
 15
0.0
 25
0.0
 35
0.0
146
0.0
 13
0.0
 23
0.0
 33
0.0
 16
1.0
 26
0.0
 36
0.0
 17
0.0
 27
1.0
 37
0.0
 76
     0
330
73
  0
LAYOUT
  5
9C
102
{ACAD_REACTORS
330
1A
102
}
330
1A
100
AcDbPlotSettings
  1

  2
None
  4

  6

 40
0.0
 41
0.0
 42
0.0
 43
0.0
 44
0.0
 45
0.0
 46
0.0
 47
0.0
 48
0.0
 49
0.0
140
0.0
141
0.0
142
1.0
143
1.0
 70
   688
 72
     0
 73
     0
 74
     5
  7

 75
    16
 76
     0
 77
     2
 78
   300
147
1.0
148
0.0
149
0.0
100
AcDbLayout
  1
Layout2
 70
     1
 71
     2
 10
0.0
 20
0.0
 11
12.0
 21
9.0
 12
0.0
 22
0.0
 32
0.0
 14
1.000000000000000E+20
 24
1.000000000000000E+20
 34
1.000000000000000E+20
 15
-1.000000000000000E+20
 25
-1.000000000000000E+20
 35
-1.000000000000000E+20
146
0.0
 13
0.0
 23
0.0
 33
0.0
 16
1.0
 26
0.0
 36
0.0
 17
0.0
 27
1.0
 37
0.0
 76
     0
330
9B
  0
LAYOUT
  5
22
102
{ACAD_REACTORS
330
1A
102
}
330
1A
100
AcDbPlotSettings
  1

  2
none_device
  4
Letter_(8.50_x_11.00_Inches)
  6

 40
6.349999904632568
 41
6.349999904632568
 42
6.350006103515625
 43
6.350006103515625
 44
215.8999938964844
 45
279.3999938964844
 46
0.0
 47
0.0
 48
0.0
 49
0.0
140
0.0
141
0.0
142
1.0
143
3.560208697428377
 70
 11952
 72
     0
 73
     1
 74
     0
  7

 75
     0
 76
     0
 77
     2
 78
   300
147
0.28088241027059
148
0.1311165230791651
149
0.096403374003771
100
AcDbLayout
  1
Model
 70
     1
 71
     0
 10
0.0
 20
0.0
 11
12.0
 21
9.0
 12
0.0
 22
0.0
 32
0.0
 14
17.69517361039386
 24
6.905042311856842
 34
0.0
 15
27.69516581125369
 25
16.41058934399311
 35
0.0
146
0.0
 13
0.0
 23
0.0
 33
0.0
 16
1.0
 26
0.0
 36
0.0
 17
0.0
 27
1.0
 37
0.0
 76
     0
330
1F
  0
MLINESTYLE
  5
18
102
{ACAD_REACTORS
330
17
102
}
330
17
100
AcDbMlineStyle
  2
Standard
 70
     0
  3

 62
   256
 51
90.0
 52
90.0
 71
     2
 49
0.5
 62
   256
  6
BYLAYER
 49
-0.5
 62
   256
  6
BYLAYER
  0
ACDBPLACEHOLDER
  5
F
102
{ACAD_REACTORS
330
E
102
}
330
E
  0
DICTIONARYVAR
  5
98
102
{ACAD_REACTORS
330
59
102
}
330
59
100
DictionaryVariables
280
     0
  1
STANDARD
  0
ENDSEC
  0
EOF
